AVVISO
Se hai tirato giù gli accordi di una canzone clicca qui

Per richiededere gli accordi, il testo e il video di una canzone clicca qui

Inoltre vi ricordiamo che alcune categorie sono RISERVATE AI SOLI MEMBRI, Grazie per l'attenzione!
Ultimi argomenti
» Natale Con Dee Jay - Max Pezzali
Mer Dic 24, 2014 6:57 pm Da admin

» I Lived - OneRepublic
Mer Dic 24, 2014 6:53 pm Da admin

» Louder Than Words - Pink Floyd
Mer Dic 24, 2014 6:52 pm Da admin

» Cool Kids - Echosmith
Mer Dic 24, 2014 6:52 pm Da admin

» Natale Con Dee Jay - Max Pezzali
Mer Dic 24, 2014 6:50 pm Da admin

» L'amore è invisibile - Mango
Gio Dic 11, 2014 7:07 pm Da admin

» Oro - Mango
Gio Dic 11, 2014 7:04 pm Da admin

» L'amore è invisibile - Mango
Gio Dic 11, 2014 6:51 pm Da admin

» Oro - Mango
Gio Dic 11, 2014 6:50 pm Da admin

SEGUICI SU FACEBOOK

Non sei connesso Connettiti o registrati

 » CANZONI DI ARTISTI ITALIANI » Il Sale Della Terra (Acoustic Version) - Ligabue

Il Sale Della Terra (Acoustic Version) - Ligabue

Andare in basso  Messaggio [Pagina 1 di 1]

admin

avatar
Admin


(Solm) (Sib) (Fa) (Dom)
E|--------------------------------------------------------------------------- |
B|---------------------------------------------------1---------------4-------|
G|-----------------3-------------------3-------------------------------------|
D|-----------5---------------------3-------------3---------------5------- ---|
A|-----------------------------1-----------------------------3----------------|
E|-----3-------------------------------------1--------------------------------|

(Solm) (Sib) (Fa) (Dom)
E|----------------------------------------------------------------------------|
B|---------3-------------------------------------------------1-------------4--|
G|-----------------------3---------------3------------------------------------|
D|-----5-------------5---------------3-------------------3-------------5------|
A|-------------------------------1---------------------------------3----------|
E|---------------3-----------------------------------1------------------------|
Siamo la sorpresa di tre vetri scuri siamo la risata dentro il tunnel degli orrori

(Solm) (Sib) (Fa) [Solo Voce]
E|----------------------------------------------------------------------------|
B|---------3-------------------------------------------------1----------------|
G|-----------------------3---------------3------------------------------------|
D|-----5-------------5---------------3-------------------3--------------------|
A|-------------------------------1--------------------------------------------|
E|---------------3-----------------------------------1------------------------| [Tab 1]
Siamo la promessa che non costa niente, siamo la chiarezza che voleva molta gente

(Solm) (Sib)
E|----------------------------------------------------------------------------|
B|----------------------------------------------------------------------------|
G|-----0-----0---0---2---3---2---0-------------0---0---2---3---2---0----------|
D|----------------------------------------------------------------------------|
A|----------------------------------------------------------------------------|
E|----------------------------------------------------------------------------|

(Fa) (Dom)
E|----------------------------------------------------------------------------|
B|---------------------------------------------------------3------------------|
G|-----0-----0---0---2---3---2---0----3h-5-----5-----5------------------------|
D|----------------------------------------------------------------------------|
A|----------------------------------------------------------------------------|
E|----------------------------------------------------------------------------| (X2)
Siamo il capi - [Stacco: Tab 2]

Solm Sib
- tano che vi fa l'inchino
Fa Dom
siamo la ragazza nel bel mezzo dell'inchino.
Solm Sib
Siamo i trucchi nuovi per i maghi vecchi,
Fa Dom
siamo le ragazze nella sala degli specchi.
Solm
siamo il culo sulla sedia,
Sib
il dramma, la commedia,
Fa Dom
il facile rimedio.
Solm Sib
Siamo l'arroganza che non ha paura,
Fa Dom
siamo quelli a cui non devi chiedere fattura... Siamo...

(Solm) (Sib)
E|----------------------------------------------------------------------------|
B|----------------------------------------------------------------------------|
G|-----------------3---------3-----------------------3-------3----------------|
D|-----------5-----------5-------5---------------3-------3-------3------------|
A|-----------------------------------------1----------------------------------|
E|-------3--------------------------------------------------------------------|
(i-e-e-e-e-e, i-e-e-e-

(Fa) (Dom)
E|----------------------------------------------------------------------------|
B|-------------1-------1---------------------4-------3------------------------|
G|-------------------------------------------------------3--------------------|
D|---------3-------3-------3-------------5-------5----------------------------|
A|-----------------------------------3----------------------------------------|
E|-----1----------------------------------------------------------------------|
e - eh) ...il sale della te - rra! ...siamo

(Solm) (Sib)
E|----------------------------------------------------------------------------|
B|----------------------------------------------------------------------------|
G|-------------3---------3-----------------------3-------3--------------------|
D|---------5---------5-------5---------------3-------3-------3----------------|
A|---------------------------------------1------------------------------------|
E|-----3----------------------------------------------------------------------|
(i-e-e-e-e-e, i-e-e-e-

(Fa) (Dom)
E|----------------------------------------------------------------------------|
B|-------------1-------1---------------------4-------3------------------------|
G|-------------------------------------------------------3--------------------|
D|---------3-------3-------3-------------5-------5----------------------------|
A|-----------------------------------3----------------------------------------|
E|-----1----------------------------------------------------------------------|
e - eh) ...il sale della te - rra! [Tab 3]

Stacco: Solm Sib Fa Dom (X2) [Tab 2]

Solm Sib
Siamo l'opinione sotto libro paga,
Fa Dom
siamo le riunioni qui nel retro di bottega.
Solm Sib
Siamo le figure dietro le figure,
Fa Dom
siamo la vergogna che fingiamo di provare.
Solm
Siamo il culo sulla sedia,
Sib Fa Dom
la farsa, la tragedia, il forte sotto assedio.
Solm Sib
Siamo la vittoria della tradizione,
Fa Dom
siamo furbi che più furbi di così si muore... Siamo... RIT. [Tab 3]

Stacco: Solm Sib Fa Solm [Tab 2, ma una sola volta]

(Battute semplici, di sottofondo si può seguire il giro di Accordi come nella Tab1)
Solm Sib
Siamo la freddezza che non ha paura,
Fa Dom
siamo quel tappeto steso sulla spazzatura.
Solm Sib
Siamo la Montblanc con cui ti faccio fuori,
Fa Dom
siamo la risata dentro al tunnel degli orrori... Siamo... RIT [Tab3]

Stacco: Solm Sib Fa Solm (X2) [Tab 2] ( e Chiude Sospesa)

http://packythunder.wix.com/music

Torna in alto  Messaggio [Pagina 1 di 1]

Permessi di questa sezione del forum:
Non puoi rispondere agli argomenti in questo forum